ISO-10303-21;
HEADER;
FILE_DESCRIPTION (( 'STEP AP203' ),
    '1' );
FILE_NAME ('Q-OZHWP-R2-10-355-M.STEP',
    '2020-12-22T09:11:34',
    ( '' ),
    ( '' ),
    'SwSTEP 2.0',
    'SolidWorks 2020',
    '' );
FILE_SCHEMA (( 'CONFIG_CONTROL_DESIGN' ));
ENDSEC;

DATA;
#1 = APPROVAL_ROLE ( '' ) ;
#2 = DATE_AND_TIME ( #166, #191 ) ;
#3 = AXIS2_PLACEMENT_3D ( 'NONE', #185, #109, #208 ) ;
#4 = CC_DESIGN_SECURITY_CLASSIFICATION ( #214, ( #142 ) ) ;
#5 = EDGE_CURVE ( 'NONE', #94, #31, #97, .T. ) ;
#6 = PERSON_AND_ORGANIZATION_ROLE ( 'creator' ) ;
#7 = ORIENTED_EDGE ( 'NONE', *, *, #296, .T. ) ;
#8 = VECTOR ( 'NONE', #15, 1000.000000000000000 ) ;
#9 = APPLICATION_CONTEXT ( 'configuration controlled 3d designs of mechanical parts and assemblies' ) ;
#10 = AXIS2_PLACEMENT_3D ( 'NONE', #318, #257, #197 ) ;
#11 = DIRECTION ( 'NONE',  ( -1.000000000000000000, -0.000000000000000000, -0.000000000000000000 ) ) ;
#12 = ORIENTED_EDGE ( 'NONE', *, *, #39, .T. ) ;
#13 = CARTESIAN_POINT ( 'NONE',  ( -3.000000000000000000, 6.123233995736766282E-16, -5.000000000000000000 ) ) ;
#14 = EDGE_CURVE ( 'NONE', #198, #120, #178, .T. ) ;
#15 = DIRECTION ( 'NONE',  ( -1.000000000000000000, -0.000000000000000000, -0.000000000000000000 ) ) ;
#16 = DIRECTION ( 'NONE',  ( 0.000000000000000000, 0.000000000000000000, -1.000000000000000000 ) ) ;
#17 = ORIENTED_EDGE ( 'NONE', *, *, #117, .F. ) ;
#18 = LOCAL_TIME ( 17, 11, 34.00000000000000000, #314 ) ;
#19 = CARTESIAN_POINT ( 'NONE',  ( -3.000000000000000000, 0.000000000000000000, 0.000000000000000000 ) ) ;
#20 = FACE_OUTER_BOUND ( 'NONE', #154, .T. ) ;
#21 = DIRECTION ( 'NONE',  ( -1.000000000000000000, -0.000000000000000000, -0.000000000000000000 ) ) ;
#22 = ADVANCED_FACE ( 'NONE', ( #118, #227 ), #324, .F. ) ;
#23 = CARTESIAN_POINT ( 'NONE',  ( -3.000000000000000000, 0.000000000000000000, 0.000000000000000000 ) ) ;
#24 = CARTESIAN_POINT ( 'NONE',  ( -3.000000000000000000, 0.000000000000000000, 0.000000000000000000 ) ) ;
#25 = APPROVAL_PERSON_ORGANIZATION ( #266, #138, #1 ) ;
#26 = PERSON_AND_ORGANIZATION ( #95, #313 ) ;
#27 = PERSON_AND_ORGANIZATION_ROLE ( 'creator' ) ;
#28 = APPLICATION_PROTOCOL_DEFINITION ( 'international standard', 'config_control_design', 1994, #84 ) ;
#29 = ORIENTED_EDGE ( 'NONE', *, *, #57, .F. ) ;
#30 = CC_DESIGN_PERSON_AND_ORGANIZATION_ASSIGNMENT ( #60, #27, ( #142 ) ) ;
#31 = VERTEX_POINT ( 'NONE', #203 ) ;
#32 = CARTESIAN_POINT ( 'NONE',  ( 3.000000000000000000, 0.000000000000000000, 0.000000000000000000 ) ) ;
#33 = ADVANCED_FACE ( 'NONE', ( #102 ), #304, .F. ) ;
#34 = ORIENTED_EDGE ( 'NONE', *, *, #133, .F. ) ;
#35 = DIRECTION ( 'NONE',  ( 1.000000000000000000, 0.000000000000000000, 0.000000000000000000 ) ) ;
#36 = APPROVAL ( #140, 'UNSPECIFIED' ) ;
#37 = VERTEX_POINT ( 'NONE', #182 ) ;
#38 = PLANE ( 'NONE',  #104 ) ;
#39 = EDGE_CURVE ( 'NONE', #147, #37, #234, .T. ) ;
#40 = ORIENTED_EDGE ( 'NONE', *, *, #57, .T. ) ;
#41 = CARTESIAN_POINT ( 'NONE',  ( 3.000000000000000000, 0.000000000000000000, 0.000000000000000000 ) ) ;
#42 = AXIS2_PLACEMENT_3D ( 'NONE', #148, #73, #63 ) ;
#43 = PRODUCT_DEFINITION ( 'UNKNOWN', '', #142, #136 ) ;
#44 = CARTESIAN_POINT ( 'NONE',  ( -1.614212418857619014, 6.123233995736767268E-16, -5.000000000000000888 ) ) ;
#45 = CARTESIAN_POINT ( 'NONE',  ( 3.000000000000000000, 0.000000000000000000, 5.000000000000001776 ) ) ;
#46 = DIRECTION ( 'NONE',  ( -1.000000000000000000, -0.000000000000000000, -0.000000000000000000 ) ) ;
#47 = CIRCLE ( 'NONE', #85, 5.000000000000001776 ) ;
#48 = CIRCLE ( 'NONE', #134, 12.69999999999999929 ) ;
#49 = ORIENTED_EDGE ( 'NONE', *, *, #279, .T. ) ;
#50 = FACE_OUTER_BOUND ( 'NONE', #302, .T. ) ;
#51 = VECTOR ( 'NONE', #155, 1000.000000000000000 ) ;
#52 = LOCAL_TIME ( 17, 11, 34.00000000000000000, #239 ) ;
#53 = PERSON_AND_ORGANIZATION ( #95, #313 ) ;
#54 = AXIS2_PLACEMENT_3D ( 'NONE', #41, #179, #305 ) ;
#55 = ADVANCED_FACE ( 'NONE', ( #20, #126 ), #103, .F. ) ;
#56 = CALENDAR_DATE ( 2020, 22, 12 ) ;
#57 = EDGE_CURVE ( 'NONE', #94, #289, #99, .T. ) ;
#58 = AXIS2_PLACEMENT_3D ( 'NONE', #262, #209, #137 ) ;
#59 = EDGE_LOOP ( 'NONE', ( #145, #245, #277, #12 ) ) ;
#60 = PERSON_AND_ORGANIZATION ( #95, #313 ) ;
#61 = ADVANCED_BREP_SHAPE_REPRESENTATION ( 'Q-OZHWP-R2-10-355-M', ( #263, #235 ), #212 ) ;
#62 = ORIENTED_EDGE ( 'NONE', *, *, #168, .F. ) ;
#63 = DIRECTION ( 'NONE',  ( 0.000000000000000000, 0.000000000000000000, -1.000000000000000000 ) ) ;
#64 = ORIENTED_EDGE ( 'NONE', *, *, #123, .T. ) ;
#65 = CARTESIAN_POINT ( 'NONE',  ( -3.000000000000000000, 0.000000000000000000, 0.000000000000000000 ) ) ;
#66 = CC_DESIGN_DATE_AND_TIME_ASSIGNMENT ( #2, #172, ( #214 ) ) ;
#67 = LOCAL_TIME ( 17, 11, 34.00000000000000000, #287 ) ;
#68 = DIRECTION ( 'NONE',  ( -1.000000000000000000, -0.000000000000000000, -0.000000000000000000 ) ) ;
#69 = CARTESIAN_POINT ( 'NONE',  ( 3.000000000000000000, 12.69999999999999929, 0.000000000000000000 ) ) ;
#70 = VERTEX_POINT ( 'NONE', #93 ) ;
#71 = CARTESIAN_POINT ( 'NONE',  ( -1.614212418857619014, 0.000000000000000000, 5.000000000000000888 ) ) ;
#72 = CARTESIAN_POINT ( 'NONE',  ( -1.614212418857619014, 0.000000000000000000, 0.000000000000000000 ) ) ;
#73 = DIRECTION ( 'NONE',  ( 1.000000000000000000, 0.000000000000000000, 0.000000000000000000 ) ) ;
#74 = AXIS2_PLACEMENT_3D ( 'NONE', #330, #226, #320 ) ;
#75 = CARTESIAN_POINT ( 'NONE',  ( -1.614212418857619014, 1.555301434917138433E-15, -12.69999999999999929 ) ) ;
#76 = CYLINDRICAL_SURFACE ( 'NONE', #58, 5.000000000000000888 ) ;
#77 = EDGE_CURVE ( 'NONE', #289, #94, #211, .T. ) ;
#78 = AXIS2_PLACEMENT_3D ( 'NONE', #159, #131, #308 ) ;
#79 = DIRECTION ( 'NONE',  ( 0.000000000000000000, 0.000000000000000000, 1.000000000000000000 ) ) ;
#80 = ORIENTED_EDGE ( 'NONE', *, *, #217, .F. ) ;
#81 = PRODUCT_DEFINITION_SHAPE ( 'NONE', 'NONE',  #43 ) ;
#82 = DIRECTION ( 'NONE',  ( -1.000000000000000000, -0.000000000000000000, -0.000000000000000000 ) ) ;
#83 = PERSON_AND_ORGANIZATION ( #95, #313 ) ;
#84 = APPLICATION_CONTEXT ( 'configuration controlled 3d designs of mechanical parts and assemblies' ) ;
#85 = AXIS2_PLACEMENT_3D ( 'NONE', #32, #11, #121 ) ;
#86 = COORDINATED_UNIVERSAL_TIME_OFFSET ( 8, 0, .AHEAD. ) ;
#87 = ORIENTED_EDGE ( 'NONE', *, *, #133, .T. ) ;
#88 = PERSON_AND_ORGANIZATION_ROLE ( 'design_supplier' ) ;
#89 = EDGE_LOOP ( 'NONE', ( #269, #280 ) ) ;
#90 = CIRCLE ( 'NONE', #54, 12.69999999999999929 ) ;
#91 = PERSON_AND_ORGANIZATION ( #95, #313 ) ;
#92 = ORIENTED_EDGE ( 'NONE', *, *, #123, .F. ) ;
#93 = CARTESIAN_POINT ( 'NONE',  ( -3.000000000000000000, 1.555301434917138433E-15, -12.69999999999999929 ) ) ;
#94 = VERTEX_POINT ( 'NONE', #183 ) ;
#95 = PERSON ( 'UNSPECIFIED', 'UNSPECIFIED', 'UNSPECIFIED', ('UNSPECIFIED'), ('UNSPECIFIED'), ('UNSPECIFIED') ) ;
#96 = CARTESIAN_POINT ( 'NONE',  ( -1.250000000000000222, 0.000000000000000000, 0.000000000000000000 ) ) ;
#97 = LINE ( 'NONE', #253, #259 ) ;
#98 = DIRECTION ( 'NONE',  ( 0.000000000000000000, 0.000000000000000000, 1.000000000000000000 ) ) ;
#99 = CIRCLE ( 'NONE', #42, 5.000000000000000888 ) ;
#100 = CARTESIAN_POINT ( 'NONE',  ( -3.000000000000000000, 5.000000000000000000, 0.000000000000000000 ) ) ;
#101 = DIRECTION ( 'NONE',  ( 0.000000000000000000, 0.000000000000000000, 1.000000000000000000 ) ) ;
#102 = FACE_OUTER_BOUND ( 'NONE', #59, .T. ) ;
#103 = PLANE ( 'NONE',  #323 ) ;
#104 = AXIS2_PLACEMENT_3D ( 'NONE', #153, #254, #16 ) ;
#105 = PRODUCT ( 'Q-OZHWP-R2-10-355-M', 'Q-OZHWP-R2-10-355-M', '', ( #161 ) ) ;
#106 = EDGE_CURVE ( 'NONE', #196, #37, #281, .T. ) ;
#107 = DIRECTION ( 'NONE',  ( 0.000000000000000000, 0.000000000000000000, 1.000000000000000000 ) ) ;
#108 = DIRECTION ( 'NONE',  ( -1.000000000000000000, -0.000000000000000000, -0.000000000000000000 ) ) ;
#109 = DIRECTION ( 'NONE',  ( -1.000000000000000000, -0.000000000000000000, -0.000000000000000000 ) ) ;
#110 = PRODUCT_RELATED_PRODUCT_CATEGORY ( 'detail', '', ( #105 ) ) ;
#111 = ADVANCED_FACE ( 'NONE', ( #157 ), #282, .F. ) ;
#112 = DATE_AND_TIME ( #267, #52 ) ;
#113 = AXIS2_PLACEMENT_3D ( 'NONE', #252, #249, #101 ) ;
#114 = CALENDAR_DATE ( 2020, 22, 12 ) ;
#115 = ADVANCED_FACE ( 'NONE', ( #294 ), #174, .F. ) ;
#116 = APPROVAL_DATE_TIME ( #112, #273 ) ;
#117 = EDGE_CURVE ( 'NONE', #37, #147, #237, .T. ) ;
#118 = FACE_BOUND ( 'NONE', #175, .T. ) ;
#119 = CC_DESIGN_APPROVAL ( #273, ( #214 ) ) ;
#120 = VERTEX_POINT ( 'NONE', #272 ) ;
#121 = DIRECTION ( 'NONE',  ( 0.000000000000000000, 0.000000000000000000, 1.000000000000000000 ) ) ;
#122 = ORIENTED_EDGE ( 'NONE', *, *, #146, .T. ) ;
#123 = EDGE_CURVE ( 'NONE', #247, #198, #90, .T. ) ;
#124 = DIRECTION ( 'NONE',  ( -0.000000000000000000, 0.000000000000000000, 1.000000000000000000 ) ) ;
#125 = VERTEX_POINT ( 'NONE', #13 ) ;
#126 = FACE_BOUND ( 'NONE', #295, .T. ) ;
#127 = ORIENTED_EDGE ( 'NONE', *, *, #117, .T. ) ;
#128 = DIRECTION ( 'NONE',  ( -1.000000000000000000, -0.000000000000000000, -0.000000000000000000 ) ) ;
#129 = UNCERTAINTY_MEASURE_WITH_UNIT (LENGTH_MEASURE( 1.000000000000000082E-05 ), #331, 'distance_accuracy_value', 'NONE');
#130 = DIRECTION ( 'NONE',  ( 0.000000000000000000, 0.000000000000000000, 1.000000000000000000 ) ) ;
#131 = DIRECTION ( 'NONE',  ( -1.000000000000000000, -0.000000000000000000, -0.000000000000000000 ) ) ;
#132 = AXIS2_PLACEMENT_3D ( 'NONE', #327, #199, #224 ) ;
#133 = EDGE_CURVE ( 'NONE', #196, #299, #47, .T. ) ;
#134 = AXIS2_PLACEMENT_3D ( 'NONE', #258, #108, #306 ) ;
#135 = FACE_OUTER_BOUND ( 'NONE', #170, .T. ) ;
#136 = DESIGN_CONTEXT ( 'detailed design', #84, 'design' ) ;
#137 = DIRECTION ( 'NONE',  ( 0.000000000000000000, 0.000000000000000000, 1.000000000000000000 ) ) ;
#138 = APPROVAL ( #310, 'UNSPECIFIED' ) ;
#139 = APPROVAL_STATUS ( 'not_yet_approved' ) ;
#140 = APPROVAL_STATUS ( 'not_yet_approved' ) ;
#141 = CIRCLE ( 'NONE', #207, 5.000000000000000000 ) ;
#142 = PRODUCT_DEFINITION_FORMATION_WITH_SPECIFIED_SOURCE ( 'ANY', '', #105, .NOT_KNOWN. ) ;
#143 = CALENDAR_DATE ( 2020, 22, 12 ) ;
#144 = EDGE_LOOP ( 'NONE', ( #7, #200, #62, #270 ) ) ;
#145 = ORIENTED_EDGE ( 'NONE', *, *, #106, .F. ) ;
#146 = EDGE_CURVE ( 'NONE', #299, #196, #187, .T. ) ;
#147 = VERTEX_POINT ( 'NONE', #256 ) ;
#148 = CARTESIAN_POINT ( 'NONE',  ( -1.250000000000000222, 0.000000000000000000, 0.000000000000000000 ) ) ;
#149 = VECTOR ( 'NONE', #283, 1000.000000000000000 ) ;
#150 = ORIENTED_EDGE ( 'NONE', *, *, #229, .F. ) ;
#151 = DIRECTION ( 'NONE',  ( -1.000000000000000000, -0.000000000000000000, -0.000000000000000000 ) ) ;
#152 = ORIENTED_EDGE ( 'NONE', *, *, #261, .T. ) ;
#153 = CARTESIAN_POINT ( 'NONE',  ( -1.250000000000000222, 5.000000000000000000, 0.000000000000000000 ) ) ;
#154 = EDGE_LOOP ( 'NONE', ( #315, #92 ) ) ;
#155 = DIRECTION ( 'NONE',  ( -1.000000000000000000, -0.000000000000000000, -0.000000000000000000 ) ) ;
#156 = AXIS2_PLACEMENT_3D ( 'NONE', #236, #286, #107 ) ;
#157 = FACE_OUTER_BOUND ( 'NONE', #223, .T. ) ;
#158 = LINE ( 'NONE', #213, #333 ) ;
#159 = CARTESIAN_POINT ( 'NONE',  ( -1.614212418857619014, 0.000000000000000000, 0.000000000000000000 ) ) ;
#160 = AXIS2_PLACEMENT_3D ( 'NONE', #65, #177, #276 ) ;
#161 = MECHANICAL_CONTEXT ( 'NONE', #9, 'mechanical' ) ;
#162 = ORIENTED_EDGE ( 'NONE', *, *, #279, .F. ) ;
#163 = FACE_OUTER_BOUND ( 'NONE', #291, .T. ) ;
#164 = CIRCLE ( 'NONE', #238, 5.000000000000000000 ) ;
#165 = APPROVAL_DATE_TIME ( #218, #36 ) ;
#166 = CALENDAR_DATE ( 2020, 22, 12 ) ;
#167 = COORDINATED_UNIVERSAL_TIME_OFFSET ( 8, 0, .AHEAD. ) ;
#168 = EDGE_CURVE ( 'NONE', #120, #70, #248, .T. ) ;
#169 = AXIS2_PLACEMENT_3D ( 'NONE', #100, #201, #329 ) ;
#170 = EDGE_LOOP ( 'NONE', ( #181, #64, #251, #150 ) ) ;
#171 = CC_DESIGN_PERSON_AND_ORGANIZATION_ASSIGNMENT ( #206, #292, ( #105 ) ) ;
#172 = DATE_TIME_ROLE ( 'classification_date' ) ;
#173 = ORIENTED_EDGE ( 'NONE', *, *, #77, .F. ) ;
#174 = PLANE ( 'NONE',  #10 ) ;
#175 = EDGE_LOOP ( 'NONE', ( #321, #275 ) ) ;
#176 = AXIS2_PLACEMENT_3D ( 'NONE', #72, #231, #222 ) ;
#177 = DIRECTION ( 'NONE',  ( -1.000000000000000000, -0.000000000000000000, -0.000000000000000000 ) ) ;
#178 = LINE ( 'NONE', #193, #8 ) ;
#179 = DIRECTION ( 'NONE',  ( -1.000000000000000000, -0.000000000000000000, -0.000000000000000000 ) ) ;
#180 = ADVANCED_FACE ( 'NONE', ( #278 ), #38, .F. ) ;
#181 = ORIENTED_EDGE ( 'NONE', *, *, #244, .F. ) ;
#182 = CARTESIAN_POINT ( 'NONE',  ( 1.250000000000000444, 6.123233995736766282E-16, -5.000000000000000000 ) ) ;
#183 = CARTESIAN_POINT ( 'NONE',  ( -1.250000000000000222, 0.000000000000000000, 5.000000000000000888 ) ) ;
#184 = CARTESIAN_POINT ( 'NONE',  ( -1.250000000000000222, 6.123233995736767268E-16, -5.000000000000000888 ) ) ;
#185 = CARTESIAN_POINT ( 'NONE',  ( -1.614212418857619014, 0.000000000000000000, 0.000000000000000000 ) ) ;
#186 =( NAMED_UNIT ( * ) SI_UNIT ( $, .STERADIAN. ) SOLID_ANGLE_UNIT ( ) );
#187 = CIRCLE ( 'NONE', #298, 5.000000000000001776 ) ;
#188 = DIRECTION ( 'NONE',  ( 1.000000000000000000, 0.000000000000000000, 0.000000000000000000 ) ) ;
#189 = CYLINDRICAL_SURFACE ( 'NONE', #156, 12.69999999999999929 ) ;
#190 = DATE_AND_TIME ( #114, #290 ) ;
#191 = LOCAL_TIME ( 17, 11, 34.00000000000000000, #167 ) ;
#192 = DATE_TIME_ROLE ( 'creation_date' ) ;
#193 = CARTESIAN_POINT ( 'NONE',  ( -1.614212418857619014, 0.000000000000000000, 12.69999999999999929 ) ) ;
#194 = APPROVAL_PERSON_ORGANIZATION ( #26, #273, #268 ) ;
#195 = PERSON_AND_ORGANIZATION_ROLE ( 'classification_officer' ) ;
#196 = VERTEX_POINT ( 'NONE', #230 ) ;
#197 = DIRECTION ( 'NONE',  ( -0.000000000000000000, 0.000000000000000000, 1.000000000000000000 ) ) ;
#198 = VERTEX_POINT ( 'NONE', #202 ) ;
#199 = DIRECTION ( 'NONE',  ( -1.000000000000000000, -0.000000000000000000, -0.000000000000000000 ) ) ;
#200 = ORIENTED_EDGE ( 'NONE', *, *, #244, .T. ) ;
#201 = DIRECTION ( 'NONE',  ( 1.000000000000000000, 0.000000000000000000, 0.000000000000000000 ) ) ;
#202 = CARTESIAN_POINT ( 'NONE',  ( 3.000000000000000000, 0.000000000000000000, 12.69999999999999929 ) ) ;
#203 = CARTESIAN_POINT ( 'NONE',  ( -3.000000000000000000, 0.000000000000000000, 5.000000000000000000 ) ) ;
#204 = DIRECTION ( 'NONE',  ( 0.000000000000000000, 0.000000000000000000, -1.000000000000000000 ) ) ;
#205 = VECTOR ( 'NONE', #151, 1000.000000000000000 ) ;
#206 = PERSON_AND_ORGANIZATION ( #95, #313 ) ;
#207 = AXIS2_PLACEMENT_3D ( 'NONE', #24, #46, #130 ) ;
#208 = DIRECTION ( 'NONE',  ( 0.000000000000000000, 0.000000000000000000, 1.000000000000000000 ) ) ;
#209 = DIRECTION ( 'NONE',  ( -1.000000000000000000, -0.000000000000000000, -0.000000000000000000 ) ) ;
#210 = CARTESIAN_POINT ( 'NONE',  ( 0.000000000000000000, 0.000000000000000000, 0.000000000000000000 ) ) ;
#211 = CIRCLE ( 'NONE', #274, 5.000000000000000888 ) ;
#212 =( GEOMETRIC_REPRESENTATION_CONTEXT ( 3 ) GLOBAL_UNCERTAINTY_ASSIGNED_CONTEXT ( ( #129 ) ) GLOBAL_UNIT_ASSIGNED_CONTEXT ( ( #331, #334, #186 ) ) REPRESENTATION_CONTEXT ( 'NONE', 'WORKASPACE' ) );
#213 = CARTESIAN_POINT ( 'NONE',  ( -1.614212418857619014, 6.123233995736767268E-16, -5.000000000000000888 ) ) ;
#214 = SECURITY_CLASSIFICATION ( '', '', #242 ) ;
#215 = SHAPE_DEFINITION_REPRESENTATION ( #81, #61 ) ;
#216 = ORIENTED_EDGE ( 'NONE', *, *, #5, .F. ) ;
#217 = EDGE_CURVE ( 'NONE', #299, #147, #303, .T. ) ;
#218 = DATE_AND_TIME ( #56, #67 ) ;
#219 = CC_DESIGN_PERSON_AND_ORGANIZATION_ASSIGNMENT ( #316, #88, ( #142 ) ) ;
#220 = CIRCLE ( 'NONE', #246, 12.69999999999999929 ) ;
#221 = ORIENTED_EDGE ( 'NONE', *, *, #5, .T. ) ;
#222 = DIRECTION ( 'NONE',  ( 0.000000000000000000, 0.000000000000000000, 1.000000000000000000 ) ) ;
#223 = EDGE_LOOP ( 'NONE', ( #34, #225, #127, #80 ) ) ;
#224 = DIRECTION ( 'NONE',  ( 0.000000000000000000, 0.000000000000000000, 1.000000000000000000 ) ) ;
#225 = ORIENTED_EDGE ( 'NONE', *, *, #106, .T. ) ;
#226 = DIRECTION ( 'NONE',  ( -1.000000000000000000, -0.000000000000000000, -0.000000000000000000 ) ) ;
#227 = FACE_OUTER_BOUND ( 'NONE', #89, .T. ) ;
#228 = CLOSED_SHELL ( 'NONE', ( #328, #240, #111, #115, #33, #250, #22, #326, #55, #180 ) ) ;
#229 = EDGE_CURVE ( 'NONE', #70, #120, #220, .T. ) ;
#230 = CARTESIAN_POINT ( 'NONE',  ( 3.000000000000000000, 6.123233995736768255E-16, -5.000000000000001776 ) ) ;
#231 = DIRECTION ( 'NONE',  ( -1.000000000000000000, -0.000000000000000000, -0.000000000000000000 ) ) ;
#232 = DIRECTION ( 'NONE',  ( 0.000000000000000000, 0.000000000000000000, 1.000000000000000000 ) ) ;
#233 = DIRECTION ( 'NONE',  ( 0.000000000000000000, 0.000000000000000000, 1.000000000000000000 ) ) ;
#234 = CIRCLE ( 'NONE', #74, 5.000000000000000000 ) ;
#235 = AXIS2_PLACEMENT_3D ( 'NONE', #210, #79, #188 ) ;
#236 = CARTESIAN_POINT ( 'NONE',  ( -1.614212418857619014, 0.000000000000000000, 0.000000000000000000 ) ) ;
#237 = CIRCLE ( 'NONE', #113, 5.000000000000000000 ) ;
#238 = AXIS2_PLACEMENT_3D ( 'NONE', #23, #21, #233 ) ;
#239 = COORDINATED_UNIVERSAL_TIME_OFFSET ( 8, 0, .AHEAD. ) ;
#240 = ADVANCED_FACE ( 'NONE', ( #163 ), #264, .F. ) ;
#241 = APPROVAL_ROLE ( '' ) ;
#242 = SECURITY_CLASSIFICATION_LEVEL ( 'unclassified' ) ;
#243 = CC_DESIGN_PERSON_AND_ORGANIZATION_ASSIGNMENT ( #83, #6, ( #43 ) ) ;
#244 = EDGE_CURVE ( 'NONE', #247, #70, #309, .T. ) ;
#245 = ORIENTED_EDGE ( 'NONE', *, *, #146, .F. ) ;
#246 = AXIS2_PLACEMENT_3D ( 'NONE', #19, #128, #232 ) ;
#247 = VERTEX_POINT ( 'NONE', #284 ) ;
#248 = CIRCLE ( 'NONE', #160, 12.69999999999999929 ) ;
#249 = DIRECTION ( 'NONE',  ( -1.000000000000000000, -0.000000000000000000, -0.000000000000000000 ) ) ;
#250 = ADVANCED_FACE ( 'NONE', ( #50 ), #76, .F. ) ;
#251 = ORIENTED_EDGE ( 'NONE', *, *, #14, .T. ) ;
#252 = CARTESIAN_POINT ( 'NONE',  ( 1.250000000000000444, 0.000000000000000000, 0.000000000000000000 ) ) ;
#253 = CARTESIAN_POINT ( 'NONE',  ( -1.614212418857619014, 0.000000000000000000, 5.000000000000000888 ) ) ;
#254 = DIRECTION ( 'NONE',  ( 1.000000000000000000, 0.000000000000000000, 0.000000000000000000 ) ) ;
#255 = ORIENTED_EDGE ( 'NONE', *, *, #39, .F. ) ;
#256 = CARTESIAN_POINT ( 'NONE',  ( 1.250000000000000444, 0.000000000000000000, 5.000000000000000000 ) ) ;
#257 = DIRECTION ( 'NONE',  ( -1.000000000000000000, 0.000000000000000000, -0.000000000000000000 ) ) ;
#258 = CARTESIAN_POINT ( 'NONE',  ( 3.000000000000000000, 0.000000000000000000, 0.000000000000000000 ) ) ;
#259 = VECTOR ( 'NONE', #68, 1000.000000000000000 ) ;
#260 = FACE_OUTER_BOUND ( 'NONE', #144, .T. ) ;
#261 = EDGE_CURVE ( 'NONE', #31, #125, #141, .T. ) ;
#262 = CARTESIAN_POINT ( 'NONE',  ( -1.614212418857619014, 0.000000000000000000, 0.000000000000000000 ) ) ;
#263 = MANIFOLD_SOLID_BREP ( 'Ðý×', #228 ) ;
#264 = CYLINDRICAL_SURFACE ( 'NONE', #3, 5.000000000000000888 ) ;
#265 = CC_DESIGN_DATE_AND_TIME_ASSIGNMENT ( #312, #192, ( #43 ) ) ;
#266 = PERSON_AND_ORGANIZATION ( #95, #313 ) ;
#267 = CALENDAR_DATE ( 2020, 22, 12 ) ;
#268 = APPROVAL_ROLE ( '' ) ;
#269 = ORIENTED_EDGE ( 'NONE', *, *, #168, .T. ) ;
#270 = ORIENTED_EDGE ( 'NONE', *, *, #14, .F. ) ;
#271 = ORIENTED_EDGE ( 'NONE', *, *, #77, .T. ) ;
#272 = CARTESIAN_POINT ( 'NONE',  ( -3.000000000000000000, 0.000000000000000000, 12.69999999999999929 ) ) ;
#273 = APPROVAL ( #139, 'UNSPECIFIED' ) ;
#274 = AXIS2_PLACEMENT_3D ( 'NONE', #96, #35, #204 ) ;
#275 = ORIENTED_EDGE ( 'NONE', *, *, #311, .F. ) ;
#276 = DIRECTION ( 'NONE',  ( 0.000000000000000000, 0.000000000000000000, 1.000000000000000000 ) ) ;
#277 = ORIENTED_EDGE ( 'NONE', *, *, #217, .T. ) ;
#278 = FACE_OUTER_BOUND ( 'NONE', #319, .T. ) ;
#279 = EDGE_CURVE ( 'NONE', #289, #125, #158, .T. ) ;
#280 = ORIENTED_EDGE ( 'NONE', *, *, #229, .T. ) ;
#281 = LINE ( 'NONE', #44, #205 ) ;
#282 = CYLINDRICAL_SURFACE ( 'NONE', #132, 5.000000000000000888 ) ;
#283 = DIRECTION ( 'NONE',  ( -1.000000000000000000, -0.000000000000000000, -0.000000000000000000 ) ) ;
#284 = CARTESIAN_POINT ( 'NONE',  ( 3.000000000000000000, 1.555301434917138433E-15, -12.69999999999999929 ) ) ;
#285 = APPLICATION_PROTOCOL_DEFINITION ( 'international standard', 'config_control_design', 1994, #9 ) ;
#286 = DIRECTION ( 'NONE',  ( -1.000000000000000000, -0.000000000000000000, -0.000000000000000000 ) ) ;
#287 = COORDINATED_UNIVERSAL_TIME_OFFSET ( 8, 0, .AHEAD. ) ;
#288 = APPROVAL_DATE_TIME ( #190, #138 ) ;
#289 = VERTEX_POINT ( 'NONE', #184 ) ;
#290 = LOCAL_TIME ( 17, 11, 34.00000000000000000, #86 ) ;
#291 = EDGE_LOOP ( 'NONE', ( #40, #49, #293, #216 ) ) ;
#292 = PERSON_AND_ORGANIZATION_ROLE ( 'design_owner' ) ;
#293 = ORIENTED_EDGE ( 'NONE', *, *, #311, .T. ) ;
#294 = FACE_OUTER_BOUND ( 'NONE', #317, .T. ) ;
#295 = EDGE_LOOP ( 'NONE', ( #122, #87 ) ) ;
#296 = EDGE_CURVE ( 'NONE', #198, #247, #48, .T. ) ;
#297 = DIRECTION ( 'NONE',  ( -1.000000000000000000, -0.000000000000000000, -0.000000000000000000 ) ) ;
#298 = AXIS2_PLACEMENT_3D ( 'NONE', #322, #297, #98 ) ;
#299 = VERTEX_POINT ( 'NONE', #45 ) ;
#300 = CC_DESIGN_APPROVAL ( #36, ( #43 ) ) ;
#301 = DIRECTION ( 'NONE',  ( -1.000000000000000000, 0.000000000000000000, -0.000000000000000000 ) ) ;
#302 = EDGE_LOOP ( 'NONE', ( #162, #271, #221, #152 ) ) ;
#303 = LINE ( 'NONE', #71, #51 ) ;
#304 = CYLINDRICAL_SURFACE ( 'NONE', #176, 5.000000000000000888 ) ;
#305 = DIRECTION ( 'NONE',  ( 0.000000000000000000, 0.000000000000000000, 1.000000000000000000 ) ) ;
#306 = DIRECTION ( 'NONE',  ( 0.000000000000000000, 0.000000000000000000, 1.000000000000000000 ) ) ;
#307 = CYLINDRICAL_SURFACE ( 'NONE', #78, 12.69999999999999929 ) ;
#308 = DIRECTION ( 'NONE',  ( 0.000000000000000000, 0.000000000000000000, 1.000000000000000000 ) ) ;
#309 = LINE ( 'NONE', #75, #149 ) ;
#310 = APPROVAL_STATUS ( 'not_yet_approved' ) ;
#311 = EDGE_CURVE ( 'NONE', #125, #31, #164, .T. ) ;
#312 = DATE_AND_TIME ( #143, #18 ) ;
#313 = ORGANIZATION ( 'UNSPECIFIED', 'UNSPECIFIED', '' ) ;
#314 = COORDINATED_UNIVERSAL_TIME_OFFSET ( 8, 0, .AHEAD. ) ;
#315 = ORIENTED_EDGE ( 'NONE', *, *, #296, .F. ) ;
#316 = PERSON_AND_ORGANIZATION ( #95, #313 ) ;
#317 = EDGE_LOOP ( 'NONE', ( #255, #17 ) ) ;
#318 = CARTESIAN_POINT ( 'NONE',  ( 1.250000000000000222, 5.000000000000000000, 0.000000000000000000 ) ) ;
#319 = EDGE_LOOP ( 'NONE', ( #29, #173 ) ) ;
#320 = DIRECTION ( 'NONE',  ( 0.000000000000000000, 0.000000000000000000, 1.000000000000000000 ) ) ;
#321 = ORIENTED_EDGE ( 'NONE', *, *, #261, .F. ) ;
#322 = CARTESIAN_POINT ( 'NONE',  ( 3.000000000000000000, 0.000000000000000000, 0.000000000000000000 ) ) ;
#323 = AXIS2_PLACEMENT_3D ( 'NONE', #69, #301, #124 ) ;
#324 = PLANE ( 'NONE',  #169 ) ;
#325 = CC_DESIGN_APPROVAL ( #138, ( #142 ) ) ;
#326 = ADVANCED_FACE ( 'NONE', ( #135 ), #307, .T. ) ;
#327 = CARTESIAN_POINT ( 'NONE',  ( -1.614212418857619014, 0.000000000000000000, 0.000000000000000000 ) ) ;
#328 = ADVANCED_FACE ( 'NONE', ( #260 ), #189, .T. ) ;
#329 = DIRECTION ( 'NONE',  ( 0.000000000000000000, 0.000000000000000000, -1.000000000000000000 ) ) ;
#330 = CARTESIAN_POINT ( 'NONE',  ( 1.250000000000000444, 0.000000000000000000, 0.000000000000000000 ) ) ;
#331 =( LENGTH_UNIT ( ) NAMED_UNIT ( * ) SI_UNIT ( .MILLI., .METRE. ) );
#332 = CC_DESIGN_PERSON_AND_ORGANIZATION_ASSIGNMENT ( #91, #195, ( #214 ) ) ;
#333 = VECTOR ( 'NONE', #82, 1000.000000000000000 ) ;
#334 =( NAMED_UNIT ( * ) PLANE_ANGLE_UNIT ( ) SI_UNIT ( $, .RADIAN. ) );
#335 = APPROVAL_PERSON_ORGANIZATION ( #53, #36, #241 ) ;
ENDSEC;
END-ISO-10303-21;
